ISO-10303-21;
HEADER;
FILE_DESCRIPTION(('STEP AP203'),'1');
FILE_NAME('340.09.383.step','2016-10-25T13:14:26',(' '),(' '),'Spatial InterOp 3D',' ',' ');
FILE_SCHEMA(('CONFIG_CONTROL_DESIGN'));
ENDSEC;
DATA;
#1=DESIGN_CONTEXT('',#27,'design');
#2=APPLICATION_PROTOCOL_DEFINITION('INTERNATIONAL STANDARD','config_control_design',1994,#27);
#3=PRODUCT_CATEGORY_RELATIONSHIP('NONE','NONE',#28,#29);
#4=DATE_AND_TIME(#30,#31);
#5=DATE_TIME_ROLE('creation_date');
#6=DATE_TIME_ROLE('classification_date');
#7=PERSON_AND_ORGANIZATION_ROLE('creator');
#8=PERSON_AND_ORGANIZATION_ROLE('design_supplier');
#9=PERSON_AND_ORGANIZATION_ROLE('classification_officer');
#10=PERSON_AND_ORGANIZATION_ROLE('design_owner');
#11=APPROVAL_PERSON_ORGANIZATION(#32,#33,#34);
#12=APPROVAL_DATE_TIME(#4,#33);
#13=CC_DESIGN_APPROVAL(#33,(#35,#36,#37));
#14=CC_DESIGN_DATE_AND_TIME_ASSIGNMENT(#4,#5,(#37));
#15=CC_DESIGN_DATE_AND_TIME_ASSIGNMENT(#4,#6,(#35));
#16=CC_DESIGN_PERSON_AND_ORGANIZATION_ASSIGNMENT(#32,#10,(#38));
#17=CC_DESIGN_PERSON_AND_ORGANIZATION_ASSIGNMENT(#32,#7,(#37));
#18=CC_DESIGN_PERSON_AND_ORGANIZATION_ASSIGNMENT(#32,#7,(#36));
#19=CC_DESIGN_PERSON_AND_ORGANIZATION_ASSIGNMENT(#32,#8,(#36));
#20=CC_DESIGN_SECURITY_CLASSIFICATION(#35,(#36));
#21=CC_DESIGN_PERSON_AND_ORGANIZATION_ASSIGNMENT(#32,#9,(#35));
#22=SHAPE_DEFINITION_REPRESENTATION(#39,#40);
#23= (GEOMETRIC_REPRESENTATION_CONTEXT(3)GLOBAL_UNCERTAINTY_ASSIGNED_CONTEXT((#43))GLOBAL_UNIT_ASSIGNED_CONTEXT((#45,#46,#47))REPRESENTATION_CONTEXT('NONE','WORKSPACE'));
#27=APPLICATION_CONTEXT('CONFIGURATION CONTROLLED 3D DESIGNS OF MECHANICAL PARTS AND ASSEMBLIES');
#28=PRODUCT_CATEGORY('part','NONE');
#29=PRODUCT_RELATED_PRODUCT_CATEGORY('detail',' ',(#38));
#30=CALENDAR_DATE(2016,25,9);
#31=LOCAL_TIME(16,14,26.0,#49);
#32=PERSON_AND_ORGANIZATION(#50,#51);
#33=APPROVAL(#52,'SOLID MODEL');
#34=APPROVAL_ROLE('APPROVED');
#35=SECURITY_CLASSIFICATION('','',#53);
#36=PRODUCT_DEFINITION_FORMATION_WITH_SPECIFIED_SOURCE(' ','NONE',#38,.NOT_KNOWN.);
#37=PRODUCT_DEFINITION('NONE','NONE',#36,#1);
#38=PRODUCT('1','1','PART-1-DESC',(#54));
#39=PRODUCT_DEFINITION_SHAPE('NONE','NONE',#37);
#40=ADVANCED_BREP_SHAPE_REPRESENTATION('1',(#55,#56),#23);
#43=UNCERTAINTY_MEASURE_WITH_UNIT(LENGTH_MEASURE(0.001),#45,'','');
#45= (CONVERSION_BASED_UNIT('MILLIMETRE',#59)LENGTH_UNIT()NAMED_UNIT(#62));
#46= (NAMED_UNIT(#64)PLANE_ANGLE_UNIT()SI_UNIT($,.RADIAN.));
#47= (NAMED_UNIT(#64)SOLID_ANGLE_UNIT()SI_UNIT($,.STERADIAN.));
#49=COORDINATED_UNIVERSAL_TIME_OFFSET(2,0,.AHEAD.);
#50=PERSON('','UNSPECIFIED',$,$,$,$);
#51=ORGANIZATION('UNSPECIFIED','UNSPECIFIED','UNSPECIFIED');
#52=APPROVAL_STATUS('approved');
#53=SECURITY_CLASSIFICATION_LEVEL('unclassified');
#54=MECHANICAL_CONTEXT('',#27,'mechanical');
#55=MANIFOLD_SOLID_BREP('1',#70);
#56=AXIS2_PLACEMENT_3D('',#71,#72,#73);
#59=LENGTH_MEASURE_WITH_UNIT(LENGTH_MEASURE(1.0),#74);
#62=DIMENSIONAL_EXPONENTS(1.0,0.0,0.0,0.0,0.0,0.0,0.0);
#64=DIMENSIONAL_EXPONENTS(0.0,0.0,0.0,0.0,0.0,0.0,0.0);
#70=CLOSED_SHELL('',(#75,#76,#77));
#71=CARTESIAN_POINT('',(0.0,0.0,0.0));
#72=DIRECTION('',(0.0,0.0,1.0));
#73=DIRECTION('',(1.0,0.0,0.0));
#74= (NAMED_UNIT(#62)LENGTH_UNIT()SI_UNIT(.MILLI.,.METRE.));
#75=ADVANCED_FACE('',(#79,#80),#81,.T.);
#76=ADVANCED_FACE('',(#82),#83,.F.);
#77=ADVANCED_FACE('',(#84),#85,.T.);
#79=FACE_OUTER_BOUND('',#86,.T.);
#80=FACE_OUTER_BOUND('',#87,.T.);
#81=CYLINDRICAL_SURFACE('',#88,3.0);
#82=FACE_OUTER_BOUND('',#89,.T.);
#83=PLANE('',#90);
#84=FACE_OUTER_BOUND('',#91,.T.);
#85=PLANE('',#92);
#86=EDGE_LOOP('',(#93));
#87=EDGE_LOOP('',(#94));
#88=AXIS2_PLACEMENT_3D('',#95,#96,#97);
#89=EDGE_LOOP('',(#98));
#90=AXIS2_PLACEMENT_3D('',#99,#100,#101);
#91=EDGE_LOOP('',(#102));
#92=AXIS2_PLACEMENT_3D('',#103,#104,#105);
#93=ORIENTED_EDGE('',*,*,#106,.T.);
#94=ORIENTED_EDGE('',*,*,#107,.F.);
#95=CARTESIAN_POINT('',(12.9378233296494,0.00184889985727077,-48.2971297075081));
#96=DIRECTION('',(-0.258819045102521,0.0,0.965925826289068));
#97=DIRECTION('',(0.965925826289068,0.0,0.258819045102521));
#98=ORIENTED_EDGE('',*,*,#106,.F.);
#99=CARTESIAN_POINT('',(12.9378233296494,0.00184889985727077,-48.2971297075081));
#100=DIRECTION('',(-0.258819045102521,0.0,0.965925826289068));
#101=DIRECTION('',(0.965925826289068,0.0,0.258819045102521));
#102=ORIENTED_EDGE('',*,*,#107,.T.);
#103=CARTESIAN_POINT('',(-0.00312892547668304,0.00184889985727077,-0.000838393054654386));
#104=DIRECTION('',(-0.258819045102521,0.0,0.965925826289068));
#105=DIRECTION('',(0.965925826289068,0.0,0.258819045102521));
#106=EDGE_CURVE('',#108,#108,#109,.T.);
#107=EDGE_CURVE('',#110,#110,#111,.T.);
#108=VERTEX_POINT('',#112);
#109=CIRCLE('',#113,3.0);
#110=VERTEX_POINT('',#114);
#111=CIRCLE('',#115,3.0);
#112=CARTESIAN_POINT('',(15.8356008085166,0.00184889985727077,-47.5206725722005));
#113=AXIS2_PLACEMENT_3D('',#116,#117,#118);
#114=CARTESIAN_POINT('',(2.89464855339052,0.00184889985727077,0.775618742252909));
#115=AXIS2_PLACEMENT_3D('',#119,#120,#121);
#116=CARTESIAN_POINT('',(12.9378233296494,0.00184889985727077,-48.2971297075081));
#117=DIRECTION('',(-0.258819045102521,0.0,0.965925826289068));
#118=DIRECTION('',(0.965925826289068,0.0,0.258819045102521));
#119=CARTESIAN_POINT('',(-0.00312892547668304,0.00184889985727077,-0.000838393054654386));
#120=DIRECTION('',(-0.258819045102521,0.0,0.965925826289068));
#121=DIRECTION('',(0.965925826289068,0.0,0.258819045102521));
ENDSEC;
END-ISO-10303-21;
