ISO-10303-21;
HEADER;
FILE_DESCRIPTION(('STEP AP203'),'1');
FILE_NAME('//Mesanserver/cizim/TOPSOLID/Projects1/\X2\0130\X0\NTERNET S\X2\0130\X0\TES\X2\0130\X0\ \X2\013000C70130\X0\N/4-1/184/184.M.F.step','2012-02-15T12:46:37',(' '),(' '),'Spatial InterOp 3D',' ',' ');
FILE_SCHEMA(('CONFIG_CONTROL_DESIGN'));
ENDSEC;
DATA;
#1=DESIGN_CONTEXT('',#27,'design');
#2=APPLICATION_PROTOCOL_DEFINITION('INTERNATIONAL STANDARD','config_control_design',1994,#27);
#3=PRODUCT_CATEGORY_RELATIONSHIP('NONE','NONE',#28,#29);
#4=DATE_AND_TIME(#30,#31);
#5=DATE_TIME_ROLE('creation_date');
#6=DATE_TIME_ROLE('classification_date');
#7=PERSON_AND_ORGANIZATION_ROLE('creator');
#8=PERSON_AND_ORGANIZATION_ROLE('design_supplier');
#9=PERSON_AND_ORGANIZATION_ROLE('classification_officer');
#10=PERSON_AND_ORGANIZATION_ROLE('design_owner');
#11=APPROVAL_PERSON_ORGANIZATION(#32,#33,#34);
#12=APPROVAL_DATE_TIME(#4,#33);
#13=CC_DESIGN_APPROVAL(#33,(#35,#36,#37));
#14=CC_DESIGN_DATE_AND_TIME_ASSIGNMENT(#4,#5,(#37));
#15=CC_DESIGN_DATE_AND_TIME_ASSIGNMENT(#4,#6,(#35));
#16=CC_DESIGN_PERSON_AND_ORGANIZATION_ASSIGNMENT(#32,#10,(#38));
#17=CC_DESIGN_PERSON_AND_ORGANIZATION_ASSIGNMENT(#32,#7,(#37));
#18=CC_DESIGN_PERSON_AND_ORGANIZATION_ASSIGNMENT(#32,#7,(#36));
#19=CC_DESIGN_PERSON_AND_ORGANIZATION_ASSIGNMENT(#32,#8,(#36));
#20=CC_DESIGN_SECURITY_CLASSIFICATION(#35,(#36));
#21=CC_DESIGN_PERSON_AND_ORGANIZATION_ASSIGNMENT(#32,#9,(#35));
#22=SHAPE_DEFINITION_REPRESENTATION(#39,#40);
#23= (GEOMETRIC_REPRESENTATION_CONTEXT(3)GLOBAL_UNCERTAINTY_ASSIGNED_CONTEXT((#43))GLOBAL_UNIT_ASSIGNED_CONTEXT((#45,#46,#47))REPRESENTATION_CONTEXT('NONE','WORKSPACE'));
#27=APPLICATION_CONTEXT('CONFIGURATION CONTROLLED 3D DESIGNS OF MECHANICAL PARTS AND ASSEMBLIES');
#28=PRODUCT_CATEGORY('part','NONE');
#29=PRODUCT_RELATED_PRODUCT_CATEGORY('detail',' ',(#38));
#30=CALENDAR_DATE(2012,15,1);
#31=LOCAL_TIME(14,46,37.0,#49);
#32=PERSON_AND_ORGANIZATION(#50,#51);
#33=APPROVAL(#52,'SOLID MODEL');
#34=APPROVAL_ROLE('APPROVED');
#35=SECURITY_CLASSIFICATION('','',#53);
#36=PRODUCT_DEFINITION_FORMATION_WITH_SPECIFIED_SOURCE(' ','NONE',#38,.NOT_KNOWN.);
#37=PRODUCT_DEFINITION('NONE','NONE',#36,#1);
#38=PRODUCT('1','1','PART-1-DESC',(#54));
#39=PRODUCT_DEFINITION_SHAPE('NONE','NONE',#37);
#40=ADVANCED_BREP_SHAPE_REPRESENTATION('1',(#55,#56),#23);
#43=UNCERTAINTY_MEASURE_WITH_UNIT(LENGTH_MEASURE(0.001),#45,'','');
#45= (CONVERSION_BASED_UNIT('MILLIMETRE',#59)LENGTH_UNIT()NAMED_UNIT(#62));
#46= (NAMED_UNIT(#64)PLANE_ANGLE_UNIT()SI_UNIT($,.RADIAN.));
#47= (NAMED_UNIT(#64)SOLID_ANGLE_UNIT()SI_UNIT($,.STERADIAN.));
#49=COORDINATED_UNIVERSAL_TIME_OFFSET(2,0,.AHEAD.);
#50=PERSON('','UNSPECIFIED',$,$,$,$);
#51=ORGANIZATION('UNSPECIFIED','UNSPECIFIED','UNSPECIFIED');
#52=APPROVAL_STATUS('approved');
#53=SECURITY_CLASSIFICATION_LEVEL('unclassified');
#54=MECHANICAL_CONTEXT('',#27,'mechanical');
#55=MANIFOLD_SOLID_BREP('1',#70);
#56=AXIS2_PLACEMENT_3D('',#71,#72,#73);
#59=LENGTH_MEASURE_WITH_UNIT(LENGTH_MEASURE(1.0),#74);
#62=DIMENSIONAL_EXPONENTS(1.0,0.0,0.0,0.0,0.0,0.0,0.0);
#64=DIMENSIONAL_EXPONENTS(0.0,0.0,0.0,0.0,0.0,0.0,0.0);
#70=CLOSED_SHELL('',(#75,#76,#77,#78,#79,#80,#81,#82,#83,#84,#85,#86,#87));
#71=CARTESIAN_POINT('',(0.0,0.0,0.0));
#72=DIRECTION('',(0.0,0.0,1.0));
#73=DIRECTION('',(1.0,0.0,0.0));
#74= (NAMED_UNIT(#62)LENGTH_UNIT()SI_UNIT(.MILLI.,.METRE.));
#75=ADVANCED_FACE('',(#89,#90),#91,.F.);
#76=ADVANCED_FACE('',(#92,#93),#94,.F.);
#77=ADVANCED_FACE('',(#95),#96,.T.);
#78=ADVANCED_FACE('',(#97,#98),#99,.F.);
#79=ADVANCED_FACE('',(#100,#101),#102,.F.);
#80=ADVANCED_FACE('',(#103,#104),#105,.T.);
#81=ADVANCED_FACE('',(#106,#107),#108,.T.);
#82=ADVANCED_FACE('',(#109,#110),#111,.T.);
#83=ADVANCED_FACE('',(#112,#113),#114,.T.);
#84=ADVANCED_FACE('',(#115,#116),#117,.T.);
#85=ADVANCED_FACE('',(#118,#119),#120,.F.);
#86=ADVANCED_FACE('',(#121,#122),#123,.T.);
#87=ADVANCED_FACE('',(#124),#125,.T.);
#89=FACE_OUTER_BOUND('',#126,.T.);
#90=FACE_OUTER_BOUND('',#127,.T.);
#91=CYLINDRICAL_SURFACE('',#128,2.1);
#92=FACE_OUTER_BOUND('',#129,.T.);
#93=FACE_OUTER_BOUND('',#130,.T.);
#94=CYLINDRICAL_SURFACE('',#131,2.1);
#95=FACE_OUTER_BOUND('',#132,.T.);
#96=PLANE('',#133);
#97=FACE_OUTER_BOUND('',#134,.T.);
#98=FACE_OUTER_BOUND('',#135,.T.);
#99=CYLINDRICAL_SURFACE('',#136,2.1);
#100=FACE_OUTER_BOUND('',#137,.T.);
#101=FACE_OUTER_BOUND('',#138,.T.);
#102=CYLINDRICAL_SURFACE('',#139,2.1);
#103=FACE_OUTER_BOUND('',#140,.T.);
#104=FACE_OUTER_BOUND('',#141,.T.);
#105=CYLINDRICAL_SURFACE('',#142,5.0);
#106=FACE_OUTER_BOUND('',#143,.T.);
#107=FACE_OUTER_BOUND('',#144,.T.);
#108=TOROIDAL_SURFACE('',#145,15.0,5.0);
#109=FACE_OUTER_BOUND('',#146,.T.);
#110=FACE_OUTER_BOUND('',#147,.T.);
#111=TOROIDAL_SURFACE('',#148,15.0,5.0);
#112=FACE_BOUND('',#149,.T.);
#113=FACE_OUTER_BOUND('',#150,.T.);
#114=PLANE('',#151);
#115=FACE_OUTER_BOUND('',#152,.T.);
#116=FACE_OUTER_BOUND('',#153,.T.);
#117=CYLINDRICAL_SURFACE('',#154,5.0);
#118=FACE_OUTER_BOUND('',#155,.T.);
#119=FACE_BOUND('',#156,.T.);
#120=PLANE('',#157);
#121=FACE_OUTER_BOUND('',#158,.T.);
#122=FACE_OUTER_BOUND('',#159,.T.);
#123=CYLINDRICAL_SURFACE('',#160,5.0);
#124=FACE_OUTER_BOUND('',#161,.T.);
#125=PLANE('',#162);
#126=EDGE_LOOP('',(#163));
#127=EDGE_LOOP('',(#164));
#128=AXIS2_PLACEMENT_3D('',#165,#166,#167);
#129=EDGE_LOOP('',(#168));
#130=EDGE_LOOP('',(#169));
#131=AXIS2_PLACEMENT_3D('',#170,#171,#172);
#132=EDGE_LOOP('',(#173));
#133=AXIS2_PLACEMENT_3D('',#174,#175,#176);
#134=EDGE_LOOP('',(#177));
#135=EDGE_LOOP('',(#178));
#136=AXIS2_PLACEMENT_3D('',#179,#180,#181);
#137=EDGE_LOOP('',(#182));
#138=EDGE_LOOP('',(#183));
#139=AXIS2_PLACEMENT_3D('',#184,#185,#186);
#140=EDGE_LOOP('',(#187));
#141=EDGE_LOOP('',(#188));
#142=AXIS2_PLACEMENT_3D('',#189,#190,#191);
#143=EDGE_LOOP('',(#192));
#144=EDGE_LOOP('',(#193));
#145=AXIS2_PLACEMENT_3D('',#194,#195,#196);
#146=EDGE_LOOP('',(#197));
#147=EDGE_LOOP('',(#198));
#148=AXIS2_PLACEMENT_3D('',#199,#200,#201);
#149=EDGE_LOOP('',(#202));
#150=EDGE_LOOP('',(#203));
#151=AXIS2_PLACEMENT_3D('',#204,#205,#206);
#152=EDGE_LOOP('',(#207));
#153=EDGE_LOOP('',(#208));
#154=AXIS2_PLACEMENT_3D('',#209,#210,#211);
#155=EDGE_LOOP('',(#212));
#156=EDGE_LOOP('',(#213));
#157=AXIS2_PLACEMENT_3D('',#214,#215,#216);
#158=EDGE_LOOP('',(#217));
#159=EDGE_LOOP('',(#218));
#160=AXIS2_PLACEMENT_3D('',#219,#220,#221);
#161=EDGE_LOOP('',(#222));
#162=AXIS2_PLACEMENT_3D('',#223,#224,#225);
#163=ORIENTED_EDGE('',*,*,#226,.F.);
#164=ORIENTED_EDGE('',*,*,#227,.T.);
#165=CARTESIAN_POINT('',(-50.0,3.46944695195362E-015,0.0));
#166=DIRECTION('',(2.46519032881566E-032,1.0,0.0));
#167=DIRECTION('',(-1.0,2.46519032881566E-032,0.0));
#168=ORIENTED_EDGE('',*,*,#228,.F.);
#169=ORIENTED_EDGE('',*,*,#229,.T.);
#170=CARTESIAN_POINT('',(50.0,3.46944695195362E-015,0.0));
#171=DIRECTION('',(6.12323399573677E-017,1.0,0.0));
#172=DIRECTION('',(-1.0,6.12323399573677E-017,0.0));
#173=ORIENTED_EDGE('',*,*,#230,.T.);
#174=CARTESIAN_POINT('',(50.0,15.0,0.0));
#175=DIRECTION('',(-6.12323399573677E-017,-1.0,0.0));
#176=DIRECTION('',(1.0,-6.12323399573677E-017,0.0));
#177=ORIENTED_EDGE('',*,*,#230,.F.);
#178=ORIENTED_EDGE('',*,*,#228,.T.);
#179=CARTESIAN_POINT('',(50.0,3.46944695195362E-015,0.0));
#180=DIRECTION('',(6.12323399573677E-017,1.0,0.0));
#181=DIRECTION('',(-1.0,6.12323399573677E-017,0.0));
#182=ORIENTED_EDGE('',*,*,#231,.F.);
#183=ORIENTED_EDGE('',*,*,#226,.T.);
#184=CARTESIAN_POINT('',(-50.0,3.46944695195362E-015,0.0));
#185=DIRECTION('',(2.46519032881566E-032,1.0,0.0));
#186=DIRECTION('',(-1.0,2.46519032881566E-032,0.0));
#187=ORIENTED_EDGE('',*,*,#232,.T.);
#188=ORIENTED_EDGE('',*,*,#233,.F.);
#189=CARTESIAN_POINT('',(35.0,35.0,0.0));
#190=DIRECTION('',(-1.0,0.0,0.0));
#191=DIRECTION('',(0.0,-1.0,0.0));
#192=ORIENTED_EDGE('',*,*,#234,.T.);
#193=ORIENTED_EDGE('',*,*,#232,.F.);
#194=CARTESIAN_POINT('',(35.0,20.0,0.0));
#195=DIRECTION('',(0.0,0.0,1.0));
#196=DIRECTION('',(1.0,0.0,0.0));
#197=ORIENTED_EDGE('',*,*,#233,.T.);
#198=ORIENTED_EDGE('',*,*,#235,.F.);
#199=CARTESIAN_POINT('',(-35.0,20.0,0.0));
#200=DIRECTION('',(0.0,0.0,1.0));
#201=DIRECTION('',(1.0,0.0,0.0));
#202=ORIENTED_EDGE('',*,*,#227,.F.);
#203=ORIENTED_EDGE('',*,*,#236,.T.);
#204=CARTESIAN_POINT('',(-50.0,1.44444745829043E-031,0.0));
#205=DIRECTION('',(-2.46519032881566E-032,-1.0,0.0));
#206=DIRECTION('',(1.0,-2.46519032881566E-032,0.0));
#207=ORIENTED_EDGE('',*,*,#235,.T.);
#208=ORIENTED_EDGE('',*,*,#236,.F.);
#209=CARTESIAN_POINT('',(-50.0,20.0,0.0));
#210=DIRECTION('',(-6.12323399573677E-017,-1.0,0.0));
#211=DIRECTION('',(1.0,-6.12323399573677E-017,0.0));
#212=ORIENTED_EDGE('',*,*,#237,.F.);
#213=ORIENTED_EDGE('',*,*,#229,.F.);
#214=CARTESIAN_POINT('',(50.0,-1.7347234759768E-014,0.0));
#215=DIRECTION('',(6.12323399573677E-017,1.0,0.0));
#216=DIRECTION('',(-1.0,6.12323399573677E-017,0.0));
#217=ORIENTED_EDGE('',*,*,#237,.T.);
#218=ORIENTED_EDGE('',*,*,#234,.F.);
#219=CARTESIAN_POINT('',(50.0,-1.7347234759768E-014,0.0));
#220=DIRECTION('',(6.12323399573677E-017,1.0,0.0));
#221=DIRECTION('',(-1.0,6.12323399573677E-017,0.0));
#222=ORIENTED_EDGE('',*,*,#231,.T.);
#223=CARTESIAN_POINT('',(-50.0,15.0,0.0));
#224=DIRECTION('',(-2.46519032881566E-032,-1.0,0.0));
#225=DIRECTION('',(1.0,-2.46519032881566E-032,0.0));
#226=EDGE_CURVE('',#238,#238,#239,.T.);
#227=EDGE_CURVE('',#240,#240,#241,.T.);
#228=EDGE_CURVE('',#242,#242,#243,.T.);
#229=EDGE_CURVE('',#244,#244,#245,.T.);
#230=EDGE_CURVE('',#246,#246,#247,.T.);
#231=EDGE_CURVE('',#248,#248,#249,.T.);
#232=EDGE_CURVE('',#250,#250,#251,.T.);
#233=EDGE_CURVE('',#252,#252,#253,.T.);
#234=EDGE_CURVE('',#254,#254,#255,.T.);
#235=EDGE_CURVE('',#256,#256,#257,.T.);
#236=EDGE_CURVE('',#258,#258,#259,.T.);
#237=EDGE_CURVE('',#260,#260,#261,.T.);
#238=VERTEX_POINT('',#262);
#239=B_SPLINE_CURVE_WITH_KNOTS('',3,(#263,#264,#265,#266,#267,#268,#269,#270,#271,#272,#273,#274,#275,#276,#277,#278,#279,#280,#281,#282,#283,#284,#285,#286,#287,#288,#289,#290,#291,#292,#293,#294,#295,#296),.UNSPECIFIED.,.T.,.F.,(2,2,2,2,2,2,2,2,2,2,2,2,2,2,2,2,2,2,2),(-0.0625,0.0,0.0625,0.125,0.1875,0.25,0.3125,0.375,0.4375,0.5,0.5625,0.625,0.6875,0.75,0.8125,0.875,0.9375,1.0,1.0625),.UNSPECIFIED.);
#240=VERTEX_POINT('',#297);
#241=CIRCLE('',#298,2.1);
#242=VERTEX_POINT('',#299);
#243=B_SPLINE_CURVE_WITH_KNOTS('',3,(#300,#301,#302,#303,#304,#305,#306,#307,#308,#309,#310,#311,#312,#313,#314,#315,#316,#317,#318,#319,#320,#321,#322,#323,#324,#325,#326,#327,#328,#329,#330,#331,#332,#333),.UNSPECIFIED.,.T.,.F.,(2,2,2,2,2,2,2,2,2,2,2,2,2,2,2,2,2,2,2),(-0.0625,0.0,0.0625,0.125,0.1875,0.25,0.3125,0.375,0.4375,0.5,0.5625,0.625,0.6875,0.75,0.8125,0.875,0.9375,1.0,1.0625),.UNSPECIFIED.);
#244=VERTEX_POINT('',#334);
#245=CIRCLE('',#335,2.1);
#246=VERTEX_POINT('',#336);
#247=CIRCLE('',#337,2.1);
#248=VERTEX_POINT('',#338);
#249=CIRCLE('',#339,2.1);
#250=VERTEX_POINT('',#340);
#251=CIRCLE('',#341,5.0);
#252=VERTEX_POINT('',#342);
#253=CIRCLE('',#343,5.0);
#254=VERTEX_POINT('',#344);
#255=CIRCLE('',#345,5.0);
#256=VERTEX_POINT('',#346);
#257=CIRCLE('',#347,5.0);
#258=VERTEX_POINT('',#348);
#259=CIRCLE('',#349,5.0);
#260=VERTEX_POINT('',#350);
#261=CIRCLE('',#351,5.0);
#262=CARTESIAN_POINT('',(-47.9,10.0,-4.27435864480685E-015));
#263=CARTESIAN_POINT('',(-47.9,10.0,-0.274889357189111));
#264=CARTESIAN_POINT('',(-47.9,10.0,0.274889357189103));
#265=CARTESIAN_POINT('',(-47.9546573789966,10.0,0.549670557154485));
#266=CARTESIAN_POINT('',(-48.1650485844561,10.0,1.05759985877889));
#267=CARTESIAN_POINT('',(-48.3206996309638,10.0,1.29054811194732));
#268=CARTESIAN_POINT('',(-48.7094518880527,10.0,1.67930036903618));
#269=CARTESIAN_POINT('',(-48.9424001412211,10.0,1.83495141554394));
#270=CARTESIAN_POINT('',(-49.4503294428455,10.0,2.04534262100346));
#271=CARTESIAN_POINT('',(-49.7251106428109,10.0,2.1));
#272=CARTESIAN_POINT('',(-50.2748893571891,10.0,2.1));
#273=CARTESIAN_POINT('',(-50.5496705571545,10.0,2.04534262100346));
#274=CARTESIAN_POINT('',(-51.0575998587789,10.0,1.83495141554394));
#275=CARTESIAN_POINT('',(-51.2905481119473,10.0,1.67930036903618));
#276=CARTESIAN_POINT('',(-51.6793003690362,10.0,1.29054811194732));
#277=CARTESIAN_POINT('',(-51.8349514155439,10.0,1.05759985877889));
#278=CARTESIAN_POINT('',(-52.0453426210035,10.0,0.549670557154489));
#279=CARTESIAN_POINT('',(-52.1,10.0,0.274889357189107));
#280=CARTESIAN_POINT('',(-52.1,10.0,-0.274889357189107));
#281=CARTESIAN_POINT('',(-52.0453426210035,10.0,-0.549670557154489));
#282=CARTESIAN_POINT('',(-51.8349514155439,10.0,-1.05759985877889));
#283=CARTESIAN_POINT('',(-51.6793003690362,10.0,-1.29054811194732));
#284=CARTESIAN_POINT('',(-51.2905481119473,10.0,-1.67930036903618));
#285=CARTESIAN_POINT('',(-51.0575998587789,10.0,-1.83495141554394));
#286=CARTESIAN_POINT('',(-50.5496705571545,10.0,-2.04534262100346));
#287=CARTESIAN_POINT('',(-50.2748893571891,10.0,-2.1));
#288=CARTESIAN_POINT('',(-49.7251106428109,10.0,-2.1));
#289=CARTESIAN_POINT('',(-49.4503294428455,10.0,-2.04534262100346));
#290=CARTESIAN_POINT('',(-48.9424001412211,10.0,-1.83495141554394));
#291=CARTESIAN_POINT('',(-48.7094518880527,10.0,-1.67930036903618));
#292=CARTESIAN_POINT('',(-48.3206996309638,10.0,-1.29054811194732));
#293=CARTESIAN_POINT('',(-48.165048584456,10.0,-1.05759985877889));
#294=CARTESIAN_POINT('',(-47.9546573789965,10.0,-0.549670557154485));
#295=CARTESIAN_POINT('',(-47.9,10.0,-0.274889357189111));
#296=CARTESIAN_POINT('',(-47.9,10.0,0.274889357189103));
#297=CARTESIAN_POINT('',(-47.9,3.46944695195362E-015,0.0));
#298=AXIS2_PLACEMENT_3D('',#352,#353,#354);
#299=CARTESIAN_POINT('',(52.1,10.0,-4.27435864480685E-015));
#300=CARTESIAN_POINT('',(52.1,10.0,-0.274889357189111));
#301=CARTESIAN_POINT('',(52.1,10.0,0.274889357189103));
#302=CARTESIAN_POINT('',(52.0453426210035,10.0,0.549670557154485));
#303=CARTESIAN_POINT('',(51.834951415544,10.0,1.05759985877889));
#304=CARTESIAN_POINT('',(51.6793003690362,10.0,1.29054811194732));
#305=CARTESIAN_POINT('',(51.2905481119473,10.0,1.67930036903618));
#306=CARTESIAN_POINT('',(51.0575998587789,10.0,1.83495141554394));
#307=CARTESIAN_POINT('',(50.5496705571545,10.0,2.04534262100346));
#308=CARTESIAN_POINT('',(50.2748893571891,10.0,2.1));
#309=CARTESIAN_POINT('',(49.7251106428109,10.0,2.1));
#310=CARTESIAN_POINT('',(49.4503294428455,10.0,2.04534262100346));
#311=CARTESIAN_POINT('',(48.9424001412211,10.0,1.83495141554394));
#312=CARTESIAN_POINT('',(48.7094518880527,10.0,1.67930036903618));
#313=CARTESIAN_POINT('',(48.3206996309638,10.0,1.29054811194732));
#314=CARTESIAN_POINT('',(48.165048584456,10.0,1.05759985877889));
#315=CARTESIAN_POINT('',(47.9546573789965,10.0,0.549670557154489));
#316=CARTESIAN_POINT('',(47.9,10.0,0.274889357189107));
#317=CARTESIAN_POINT('',(47.9,10.0,-0.274889357189107));
#318=CARTESIAN_POINT('',(47.9546573789966,10.0,-0.549670557154489));
#319=CARTESIAN_POINT('',(48.165048584456,10.0,-1.05759985877889));
#320=CARTESIAN_POINT('',(48.3206996309638,10.0,-1.29054811194732));
#321=CARTESIAN_POINT('',(48.7094518880527,10.0,-1.67930036903618));
#322=CARTESIAN_POINT('',(48.9424001412211,10.0,-1.83495141554394));
#323=CARTESIAN_POINT('',(49.4503294428455,10.0,-2.04534262100346));
#324=CARTESIAN_POINT('',(49.7251106428109,10.0,-2.1));
#325=CARTESIAN_POINT('',(50.2748893571891,10.0,-2.1));
#326=CARTESIAN_POINT('',(50.5496705571545,10.0,-2.04534262100346));
#327=CARTESIAN_POINT('',(51.0575998587789,10.0,-1.83495141554394));
#328=CARTESIAN_POINT('',(51.2905481119473,10.0,-1.67930036903618));
#329=CARTESIAN_POINT('',(51.6793003690362,10.0,-1.29054811194732));
#330=CARTESIAN_POINT('',(51.834951415544,10.0,-1.05759985877889));
#331=CARTESIAN_POINT('',(52.0453426210035,10.0,-0.549670557154485));
#332=CARTESIAN_POINT('',(52.1,10.0,-0.274889357189111));
#333=CARTESIAN_POINT('',(52.1,10.0,0.274889357189103));
#334=CARTESIAN_POINT('',(52.1,3.34085903804314E-015,0.0));
#335=AXIS2_PLACEMENT_3D('',#355,#356,#357);
#336=CARTESIAN_POINT('',(52.1,15.0,0.0));
#337=AXIS2_PLACEMENT_3D('',#358,#359,#360);
#338=CARTESIAN_POINT('',(-47.9,15.0,0.0));
#339=AXIS2_PLACEMENT_3D('',#361,#362,#363);
#340=CARTESIAN_POINT('',(35.0,30.0,0.0));
#341=AXIS2_PLACEMENT_3D('',#364,#365,#366);
#342=CARTESIAN_POINT('',(-35.0,30.0,0.0));
#343=AXIS2_PLACEMENT_3D('',#367,#368,#369);
#344=CARTESIAN_POINT('',(45.0,20.0,0.0));
#345=AXIS2_PLACEMENT_3D('',#370,#371,#372);
#346=CARTESIAN_POINT('',(-45.0,20.0,0.0));
#347=AXIS2_PLACEMENT_3D('',#373,#374,#375);
#348=CARTESIAN_POINT('',(-45.0,2.11852293882596E-032,0.0));
#349=AXIS2_PLACEMENT_3D('',#376,#377,#378);
#350=CARTESIAN_POINT('',(45.0,-1.70410730599812E-014,0.0));
#351=AXIS2_PLACEMENT_3D('',#379,#380,#381);
#352=CARTESIAN_POINT('',(-50.0,3.46944695195362E-015,0.0));
#353=DIRECTION('',(-2.46519032881566E-032,-1.0,0.0));
#354=DIRECTION('',(1.0,-2.46519032881566E-032,0.0));
#355=CARTESIAN_POINT('',(50.0,3.46944695195362E-015,0.0));
#356=DIRECTION('',(-6.12323399573677E-017,-1.0,0.0));
#357=DIRECTION('',(1.0,-6.12323399573677E-017,0.0));
#358=CARTESIAN_POINT('',(50.0,15.0,0.0));
#359=DIRECTION('',(-6.12323399573677E-017,-1.0,0.0));
#360=DIRECTION('',(1.0,-6.12323399573677E-017,0.0));
#361=CARTESIAN_POINT('',(-50.0,15.0,0.0));
#362=DIRECTION('',(-2.46519032881566E-032,-1.0,0.0));
#363=DIRECTION('',(1.0,-2.46519032881566E-032,0.0));
#364=CARTESIAN_POINT('',(35.0,35.0,0.0));
#365=DIRECTION('',(-1.0,0.0,0.0));
#366=DIRECTION('',(0.0,-1.0,0.0));
#367=CARTESIAN_POINT('',(-35.0,35.0,0.0));
#368=DIRECTION('',(-1.0,0.0,0.0));
#369=DIRECTION('',(0.0,-1.0,0.0));
#370=CARTESIAN_POINT('',(50.0,20.0,0.0));
#371=DIRECTION('',(6.12323399573677E-017,1.0,0.0));
#372=DIRECTION('',(-1.0,6.12323399573677E-017,0.0));
#373=CARTESIAN_POINT('',(-50.0,20.0,0.0));
#374=DIRECTION('',(0.0,-1.0,0.0));
#375=DIRECTION('',(1.0,0.0,0.0));
#376=CARTESIAN_POINT('',(-50.0,1.44444745829043E-031,0.0));
#377=DIRECTION('',(-2.46519032881566E-032,-1.0,0.0));
#378=DIRECTION('',(1.0,-2.46519032881566E-032,0.0));
#379=CARTESIAN_POINT('',(50.0,-1.7347234759768E-014,0.0));
#380=DIRECTION('',(6.12323399573677E-017,1.0,0.0));
#381=DIRECTION('',(-1.0,6.12323399573677E-017,0.0));
ENDSEC;
END-ISO-10303-21;
